20140218_121536  

自從情人節的時候朋友要我寫張"幹"的明信片寄給他,他的上司和朋友看了也想要髒話明信片。

雖然覺得應該沒多少人想要這種鬼東西,不過如果要我寫英文花體字明信片/中文書法明信片給你的話也OK唷!(詳細看內文)

 

英文比較正常大概會是長這樣,看字數和我高興而定 

R0018396-2   R0018397  

 

總之呢,就是留言告訴我:

*想要我寫什麼? 中文書法還是英文?

*姓名地址

 

不用錢啦!就這麼簡單~一人一張喔!

 寫髒話若有任何法律責任不負責喔!請確定收件人開得起玩笑阿!

-------------------------------5/25更新------------------------------

因為突然太多人留言來要了,怕寫不完XD 所以留言等滿一百樓之後會先鎖起來,寫完再開放。(大約一個半月後吧......)

沒留到言的不用難過(?),近期會印髒話貼紙,敬請期待!

因為你前面可能還有很多人排隊,所以生日卡不保證能如期寄到。(我大約五天寫三張,可以算算自己在幾樓)

一次要不只一張的,我隨機挑一張寫。

------------------------------------------------------------------------

5/29

我有粉絲團囉~

https://www.facebook.com/dramadaphne

 

----------------------------6/1--------------------------------

 

 髒話貼紙的騙讚辦法索取辦法請看最新的這篇文章

 

 

---------------------2/19更新---------------------

這張是號稱「復興金城武」指定的髒話明信片XD

20140218_135935  

 

 

 ---------------------2/20更新---------------------

海外的朋友和1樓要的明信片

肏這個字第一次寫哪,該說有創意嗎XD

20140219_112914   

 

朋友說這字體很像日本酒的標籤,於是就來合成一張

恩,還滿搭的(喂!)

大吟釀   

網友Shun Pan要的勵志明信片

好難得終於有人要了正常的字眼啦!!!!

20140220_103303  

 

 

------------------------2/21更新------------------------

恩恩今天大家忽然勵志了起來!

網友Yao指定要的「英精」(你確定是英精!?聽起來怪怪的捏!)

和Lanhwang的「問心無愧」

20140221_120319  

 

 

-------------------------2/24更新-------------------------

三樓要的「膝上襪」和歪國捧油asghz要的「毀滅」

20140224_122536  20140224_122510   

 

 

-----------------------2/25更新-------------------------

今天試試寫粗魯一點

 

Tim Wu要的筆名+髒話兒

20140225_120859  

 

越南的seefaring要的三明治  (為什麼選這個字.....)

20140225_120950拷貝   

 

 

 

--------------------------2/26更新--------------------------

不知道我的湯部落的文章被轉到哪去,忽然湧進一堆人要明信片

不過我一天能寫的就幾張,海外的民眾就慢慢等吧~

朋友要的「雞掰」和「幹你娘」

外國網友actualheichou要的「幹數學」(我真不知道這什麼意思.....)

20140226_132145  

 

同樣是外國網友actualheichou要的「Chameleons」,難得有人要我寫英文啦!

20140226_131602  

 

 ----------------------------------2/27更新---------------------------------

 

朋友要的「趕羚羊」

還有外國朋友要的「韌性」和「通心麵」

20140227_135806  

 

 

-------------------------3/3更新--------------------

朋友要的「跪下」

Bernard要的「義」

courageandknowledge要的「聖殿」

20140303_135609  

 

bassexual要的「Never give up!!!!」

20140303_135717  

 

 

 

------------------------3/4更新------------------------------

Mireia指定的「夏天」

aicadeguia指定的「相信」

湯上匿名指定的「永不屈服」

20140304_140325   20140304_140439  20140304_140241  

 

 

 

------------------3/5------------------------

四樓指定的「微靠背」還有朋友想要的「爽」

20140305_140516  

 

 

---------------------------3/10---------------------

高雄的peacetehworld指定的「Oh, the place you'll go.」上網一查才知道原來是是一本給畢業生的圖文書

ohtheplaceyoullgo  

 

美國的Isabella指定她的名字

isabella  

 

 

-------------------------3/11--------------------------------------

20140311_133200  

20140311_133913  20140311_133941  

 

 

-----------------------3/12更新---------------------------

今天寫的明信片在臉書上被人說「這次的好正常...失望」「假文青」,雖然對方可能是開玩笑的,但是還是會覺得不爽。

明信片上面的字都是別人拜託,我寫了之後免費寄送的,有些字對於那個人可能是奉為圭臬的箴言,但在有些人眼中不是髒話明信片就是「假文青」「無趣」。

比如下面的春分,是湯上一個對岸網友說這個日子對她意義重大,希望我可以寫給她,而在不知情的人眼中,不寫髒話=無趣、假文青......(嘆)

20140312_160514  20140312_160537  

20140312_160549   20140312_160557    

 

 

---------------------------------3/13------------------------

今天太來勁了只畫一張

Tumblr的gorgish-giyongchy指定的"One King One Crown"

不大清楚是什麼意思,貌似是韓國男子團體的歌詞?

20140313_124915

 

 

 ----------------------------3/14--------------------------

Sheepy 要的"Bazinga"

PIC001372  

我表哥要送給他兩歲兒子的“激凸” (這樣好嗎XD)

20140314_161739  

七樓的“氣炸布丁” (因為在五六樓選字的時候他先回了,五六樓等等喔XD)

20140314_161803  

同學指定的“手到擒來”

20140314_161822  

 

 

----------------------------3/17----------------------------

六樓的“我的天兒”

八樓的“堅持下去”

20140317_130238拷貝  20140317_130255拷貝  

 

 

----------------------------3/18----------------------------

五樓的“偏激”

和15樓的"魯蛇"

 20140318_131259  20140318_131238  

 

------------------------3/20-----------------------------

 

13樓的「前進」

16樓的「會計去死」

17樓的「欺人太聖」

 

20140320_120450  

 

---------------------3/24------------------

最近服貿到場湊人數

暫停幾天

 

 

-----------------------3/31-----------------------

給千祥的“草枝擺”

給湯上zxriitaaue600的"風月無邊"

給20樓的Ashley

 20140331_174059  20140331_174110  20140331_174037  

 

-------------------------4/8---------------------------

shoujokay在湯上要的“You can;t make everyone happy all the time”

朋友要送給女朋友的“正點”

the-revelat0r指定的“鼓舞”

20140408_14012420140408_14020620140408_140217  

 

 

------------------------4/10--------------------------

wannatea指定的“鮭魚”(???)

20140410_114805  

 

 

-------------------------4/14-------------------------

今天終於把所有人指定的明信片寫完啦!!!!(伸懶腰)

shy-shy-cat指定的生日卡片。

Amy801219指定美國隊長2裡面的台詞「自由的代價很高,但我願意付出!」

還有Eason要送給閃光的卡片。

20140414_16261520140414_16160220140414_161617  

 

 

 

---------------------------4/23----------------------------

 

23樓要的“芭樂”

20140422_142851  

 

 

----------------------------4/29-------------------------------

25樓指定的“Happy Birthday 筱原憲司”

20140429_160743  

 

 

----------------------------4/30------------------------------

捧油指定的「糖分」和26樓的「Let's Party」

20140430_153252  PIC001437  

 

 

----------------------------------5/2-------------------------------

27樓指定的「Nalice」

20140502_170428  

 

 

 

------------------------------------5/7-----------------------------------------

28樓指定的髒話和30樓指定的Mayday

20140507_143144

PIC001443  

 

 

 

-------------------------------5/8------------------------------

Blata指定的的「小波春洋」

還有nausea要的「Angel Effect」

20140508_143618  PIC001447  

 

 

 

-------------------------------5/12--------------------------

31樓和她妹妹要的「神人」和「One today is worth two tomorrows」

20140512_135454

PIC001450  

 

-------------------------------------5/13日----------------------------

給ray的借過和感謝卡~

20140513_170236

PIC001453  

 

 

---------------------------5/14---------------------------

sekaei指定的「そして全てが夢だと僕を笑った」

20140514_145725  

 

 

----------------------------------5/15----------------------------------

Cailen指定的「light the fire」的中文

corpus-ren指定的「Being Human」的中文

2生而為人  

 

---------------------5/16----------------------

湯部落上41blocks指定的 「rain」

20140516_121812   

 

 

 

------------------------------5/19-----------------------------

34樓的「去旅行吧」

PIC001459  

 

 

-----------------------------------5/20-------------------------------------

35樓的「HOBOOK, Fight」

PIC001464small  

 

 

 

 

 

----------------------------------5/22--------------------------------

Julie要的她的名字

PIC001466  

 

 

 

------------------------------5/27-----------------------------

runawaychorekee指定的「Keep your head up. Keep your heart strong.」

和33樓的「握麼」

PIC001468  

PIC001469  

 

 

 

-----------------------------5/28-----------------------------

35樓的「bonefire heart」

PIC001487  

 

 

------------------------------5/29----------------------

36樓的aggie

20140529_154240  

 

 

--------------------------------5/30-----------------------------

37樓的Dear YUI

PIC001491  

 

 

 

--------------------------6/11-------------------------

38樓的Lily

PIC001501  

 

------------------------6/12----------------------------

39樓的米菈好正

20140612_161235  

 

 

----------------------------------------6/13------------------------------------

40樓指定的「Do Whatever Just Stay Alive」

 

--------------------------------------6/16--------------------------

41樓的「玥玥」

PIC001511  

 

 

-----------------------------------6/24-----------------------------------

42樓的「母之」和44樓的「台灣獨立」

20140624_132737  

 

 

------------------------------6/25--------------------------------

43樓的靠腰

PIC001517  

 

 

-----------------------------------------6/27------------------------------

45樓的「藍眼淚」

PIC001523  

 

 

 

-------------------------7/2--------------------

46樓的Anita

PIC001524  

 

 

 

-------------------------7/3---------------------

48樓的“慢慢滴....微加幸福”

20140703_161633  

 

 

------------------------7/27---------------------------------

朋友要的“人人有功練”

人人有功練  

 

 

------------------------7/9-----------------

54樓想要的“殺毀”

PIC001535  

 

 

--------------------7/10------------------------

49樓的“靠杯”

PIC001536  

 

 

 

-------------------------------7/11----------------------------

唔喔不小心漏掉一樓了,先寫米猴唷!

米猴  

 

 

------------------------7/14----------------------

55樓的“減你個肥肉+拳頭”

PIC001538  

 

 

 

----------------------7/16-----------------------------

57樓的“減肥尚未成功,同志仍須努力”

PIC001544  

 

 

-----------------------7/17----------------------------

58樓的“基佬神”

基佬神  

 

 

 

 

---------------------------7/18------------------

 

59樓的“炸你個雞柳條”

 

炸你個機柳條  

 

--------------------------------------7/20------------------------------

61樓指定的"華鳥風月"

63樓指定的"SPEAR"

10561594_534130633376590_7469435717161901461_n20140718_155228  

 

 

----------------------------7/22--------------------------

64樓的“挑戰自我”

PIC001566  

 

-----------------8/1---------------

65樓點播的SPICA

20140801_155718  

 

 

 

-----------------------8/11-------------------------------

68樓的"liberal life"

 

PIC001593  

 

-------------~8/28----------------

之前沒貼上的順便補上

14947_554398084683178_3755489150449175988_n10574327_546641855458801_6568099736398150402_n10606490_554398081349845_4738937896302915567_n10653593_554398074683179_7707867699900379444_n  

 

阿啊爆字數啦!

之後的髒話明信片都放在這個相簿,想關心自己髒話明信片進度的可以來看

    全站熱搜

    做作的Daphne 發表在 痞客邦 留言(99) 人氣()